THUMB
Make your own free website on Tripod.com
"Thumb" by Kyuss, from the album "Blues for the Red Sun".

transcribed by The Green Machine


intro. * the tone at the beginning is flanged bass feedback
----------------------------------------------------------------------------
----------------------------------------------------------------------------
-----9-7-9---9---7-9-7---7---7-9-------------5------------------------------
---------------------------------7---7---5-7--------------------------------
-0--------------------------------------------------------------------------
----------------------------------------------------------------------------
(the other variations are derived from the same pattern, but end on a different note)


main riff
----------------------------------------------------------------------------
----------------------------------------------------------------------------
----------------------------------------------------------------------------
----------------------------------------------------------------------------
-7---7---7-8-7---7---7---7-8-7---7---7---7-8-7---7---7---10-10--------------
-5---5---5-6-5---5---5---5-6-5---5---5---5-6-5---5---5---8--8---------------


chorus
----------------------------------------------------------------------------
----------------------------------------------------------------------------
----------------------------------------------------------------------------
-10---10-10-10-10-10---10-10-10-10-7-----7-----10---------------------------
--8----8--8--8--8--8----8--8--8--8---5-5---5-5------------------------------
----------------------------------------------------------------------------

----------------------------------------------------------------------------
----------------------------------------------------------------------------
----------------------------------------------------------------------------
-10---10-10-10-10-10---10-10-10-10-7-----7-10-10----------------------------
--8----8--8--8--8--8----8--8--8--8---5-5------------------------------------
----------------------------------------------------------------------------

----------------------------------------------------------------------------
----------------------------------------------------------------------------
----------------------------------------------------------------------------
-10---10-10-10-10-10---10-10-10-10-7-7-7------------------------------------
--8----8--8--8--8--8----8--8--8--8-5-5-5-10-10-10---------------------------
------------------------------------------8--8--8---------------------------

outro
----------------------------------------------------------------------------
----------------------------------------------------------------------------
----------------------------------------------------------------------------
----------------------------------------------------------------------------
-0---0-0-3---3-2---2---6-5-6/-----------------------------------------------
----------------------------------------------------------------------------

powered by lycos
SEARCH: Tripod The Web