SPACE CADET
Make your own free website on Tripod.com
"Space Cadet" by Kyuss, from the album "Welcome to Sky Valley".

transcribed by Paul Inglis <100334.1121@compuserve.com>


Intro:
|--------------------------------------|------------|
|--------------------------------------|------------|
|--------------------------------------|------------|
|--------------------------------------|------------|
|-----7/9-----9/10----10/12-----12/13--|-----13/14--|
|--0-------0-------0---------0---------|--0---------|

|-------------------------------------|-----------------------------|
|-------------------------------------|-----------------------------|
|-------------------------------------|-----------------------------|
|-------------------------------------|-----------------------------|
|--13^14^13--14--14/16--14--13^14^13--|-----13\11-----11\9-----9\7--|
|-------------------------------------|--0---------0--------0-------|
x2
|----------|-----------------------------------||--------------||
|----------|-----------------------------------||--------------||
|----------|-----------------------------------||--------------||
|----------|-----------------------------------||--------------||
|-----7\5--|-----4/5--4--0--/7--5--4^5^4-------||-----7-----7--||
|--0-------|--0---------------------------5/7--||--0-----0-----||

|--------------|-----------------------------------|
|--------------|-----------------------------------|
|--------------|-----------------------------------|
|--------------|-----------------------------------|
|-----5-----5--|-----4/5--4--0--/7--5--4^5^4-------|
|--0-----0-----|--0---------------------------5/7--|


Verse:
||---------------------------|--------------------------------|
||---------------------------|--------------------------------|
||---------------------------|--------------------------------|
||-----------5---------------|---------------------------0^2--|
||-----------------7^5^0-----|----------------------0^2-------|
||--0--0--x-----x---------3--|--0--0--x--3--0--3^5------------|

|---------------------------|-------------------------------||
|---------------------------|-------------------------------||
|---------------------------|-------------------------------||
|-----------5---------------|-------------------------------||
|-----------------7^5^0-----|---------------5--5^7--0^2-----||
|--0--0--x-----x---------3--|--0--3--5--/7---------------3--||

...after the first repeat, a second guitar part starts over the top of the first:

||-------------------------|-----------------------|
||---------3--3--2^3^2-----|---------3--3--2^3--2--|
||---------0------------2--|---------0-------------|
||--2--2-------------------|--2--2-----------------|
||-------------------------|-----------------------|
||-------------------------|-----------------------|
x2
|-------------------------|-------------------------------||
|---------3--3--2^3^2-----|-----2--2^3--2/3--2/3--2/3--2--||
|---------0------------2--|-------------------------------||
|--2--2-------------------|--2----------------------------||
|-------------------------|-------------------------------||
|-------------------------|-------------------------------||


Next comes a second verse part, again with two guitar parts...

Guitar 1:
||----------------------|-------------|-----------------------------|
||----------------------|-------------|-----------------------------|
||----------------------|-------------|-----------------------------|
||----------------------|-------------|-----------------------------|
||--5--5----5--7--5--4--|-------------|-----------10\-----7^5^0-----|
||----------------------|--0--/3--/3--|--0--0--x-------0---------3--|

1--------+ 2--------+
|--------------------------------|| -------------------------------|
|--------------------------------|| -------------------------------|
|--------------------------------|| -------------------------------|
|--------------------------------|| -------------------------------|
|--------------------------------|| ---------------5--5^7--0^2-----|
|--0--0--x--3--0--3^5--5~6~5--3--|| --0--3--5--/7---------------3--|


Guitar 2:
||----------------------|-------------|-----------------------------|
||--8--8----8--8-----8--|---/10--/10--|--8--8-----7--8--7^8^7-------|
||--7--7----7--7-----6--|-------------|------------------------9----|
||----------------------|-------------|-----------------------------|
||----------------------|-------------|-----------------------------|
||----------------------|-------------|-----------------------------|

|-----------------|---------------------|--------------|
|-----------------|--8--8----8--8----8--|----/10--/10--|
|--7--9--9~10--9--|--7--7----7--7----6--|--------------|
|-----------------|---------------------|--------------|
|-----------------|---------------------|--------------|
|-----------------|---------------------|--------------|

|--------------10--------|----------------|
|--8----7^8^7------8--7--|--5--7--5--5----|
|------------------------|----------------|
|------------------------|----------------|
|------------------------|----------------|
|------------------------|----------------|

powered by lycos
SEARCH: Tripod The Web