SEA HAG
Make your own free website on Tripod.com
"Seahag" by Fu Manchu, from the album "In search of..." Tabbed by SETCH.

Tuning:-All strings down one full step.
The two main riffs of this song are both played with a bunch
of variations and improvisation. I have tabbed three ways to
play riff 1, but y'all will have to figure the rest out for
yourselves, because I am lazy at tabbing easy shit...... eg(DGCFAD)
Riff 1. (intro and main riff)
d|---------------------------------------------------|
A|---------------------------------------------------|
F|---------------------------------------------------|
C|-8-------8-------8--------8--------10b12r10-8------|
G|---10-10---10-10---10-10----10-10-------------10---|
D|---------------------------------------------------|
d|---------------------------------------------------|
A|---------------------------------------------------|
F|---------------------------------------------------|
C|-8-------8-------8--------8--------8---------------|
G|---10-10---10-10---10-10----10---------------------|
D|-------------------------------10------------------|
d|---------------------------------------------------|
A|---------------------------------------------------|
F|---------------------------------------------------|
C|-8-------8-------10b12---8h10-10-------------------|
G|---10-10---10-10-----------------10-8--------------|
D|---------------------------------------------------|
Riff 2. (second main riff)
d|---------------------------------------------------|
A|---------------------------------------------------|
F|-8-------8-------8--------8--------10b12r10-8------|
C|---10-10---10-10---10-10----10-10-------------10---|
G|---------------------------------------------------|
D|---------------------------------------------------|
Riff 3. (interlude or whatever)
d|---------------------------------------------------|
A|---------------------------------------------------|
F|---------------------------------------------------|
C|---------------------------------------------------|
G|-8-8-8-8--12--10--8-------3-3-3-3---10-10-10--8----|
D|-6-6-6-6--10--8---6-------1-1-1-1---8--8--8---6----|
Riff 4. (solo rhythm and outro)
d|---------------------------------------------------|
A|---------------------------------------------------|
F|---------------------------------------------------|
C|---------------------------------------------------|
G|-5--5--------8--8-----------10-10-------12-12------|
D|-3--3--------6--6-----------8--8--------10-10------|

powered by lycos
SEARCH: Tripod The Web