My Tripod Page
Make your own free website on Tripod.com
"Evil Eye" by Fu Manchu. From the Album "The Action is go". Tabbed by SETCH.

Tuning:-all strings down a full step. eg(DGCFAD) Riff 1.
d|------------------------------------------------------------|
A|------------------------------------------------------------|
F|------------------------------------------------------------|
C|-2--2-5-5--7------------------2--2-5-5--7-------------------|
G|-2--2-5-5--7--3-4-5-0-3-4-5---2--2-5-5--7--3-4-5-0-3-4-5----|
D|-0--0-3-3sl5------------------0--0-3-3sl5-------------------|
Riff 2. (guitar 2 plays harmony one octave higher)
d|--------------------------------------------------|
A|--------------------------------------------------|
F|--------------------------------------------------|
C|-2--7-7--5-7-8-8-8-88----7-7--5-7-8-8-8-88--------|
G|-2--7-7--5-7-8-8-8-88----7-7--5-7-8-8-8-88--------|
D|-0--5-5--3-5-6-6-6-66----5-5--3-5-6-6-6-66--------| Riff 3.
d|----------------------------------------------------------|
A|----------------------------------------------------------|
F|----------------------------------------------------------|
C|-2--------------------------------------------------------|
G|-2-----------5--5-5-------7---2-----------5--5-5-------7--|
D|-0--0-5-6-7---------7-6-5-----0--0-5-6-7---------7-6-5----|

powered by lycos
SEARCH: Tripod The Web