ELECTRIC SLEEP
Make your own free website on Tripod.com
"Electric Sleep" by sHeavy, from the album "The Electric Sleep".

tuning: C#main riff
------------------------------------------------|---------------------------------------
------------------------------------------------|---------------------------------------
-----------------------------------------h--7~--|----------------(/9)-------------------
------------------5^-------------h--5~--7^9-----|---------------5-----------------------
------------5--7------7-5--7----5^7-------------|------------5-----7--------------------
-0---3---5--------------------------------------|-0---3---5-----------------------------
solo riff
----------------------------------------------------------------------------
----------------------------------------------------------------------------
----------------7-9-----------------9-7-------------------------------------
----------------5-7-----------------7-5-----------------h-----h-----h-------
------5-------------------5-------------------5--------5^7-0-5^7-0-5^7-5~---
-0-0--3-0----0-------0-0--3-0----0-------0-0--3-0----0----------------------

powered by lycos
SEARCH: Tripod The Web