VIRTUAL MACHINE
Make your own free website on Tripod.com
"Virtual Machine" by sHeavy, from the album "The Electric Sleep".


transcribed by ded bob

tuning: C


intro/main riff
----------------------------------|------------------------------------
-----------------p-----p----------|-----------------p------------------
----------p----10^7---8^7----h-p--|----------p----10^7---10---10-10-10-
-0---0-0-8^7-0------0-----0-7^8^7-|-0---0-0-8^7-0------0--8----8--8--8-
----------------------------------|------------------------------------
----------------------------------|------------------------------------
x x x x x x x x x

----------------------------------|-------------------------------------
-----------------p-----p----------|-----------------p-------------------
----------p----10^7---8^7----h-p--|----------p----10^7---10-10-10-10-10-
-0---0-0-8^7-0------0-----0-7^8^7-|-0---0-0-8^7-0------0--8--8--8--8--8-
----------------------------------|-------------------------------------
----------------------------------|-------------------------------------
x x x x x x x x x



verse riff
-------------------------------------------------------------------------
-------------------------------------------------------------------------
-7-7-7-7-7-7-7-7---7-7-7-7-7-7---7-7-7-7-7-7-7-7--10-10-10-10-10-10-10---
-7-7-7-7-7-7-7-7---7-7-7-7-7-7---7-7-7-7-7-7-7-7---8--8--8--8--8--8--8---
-5-5-5-5-5-5-5-5---5-5-5-5-5-5---5-5-5-5-5-5-5-5-------------------------
-------------------------------------------------------------------------


chorus riff (strum with rhythm)
-------------------------------------------------------------------------
-------------------------------------------------------------------------
-------------------------------------------------------------------------
-5/7---------------------------------------------10----------------------
-5/7---------------------------------------------10----------------------
-3/5----------------------------------------------8----------------------

powered by lycos
SEARCH: Tripod The Web