FLOWER GIRL
Make your own free website on Tripod.com
"Flower Girl" by Unida, from the Unida/Dozer Split EP.


transcribed by ded bob

tuning: D


main/verse riff x4 x2
---------------------------|-----------------------------
---------------------------|-----------------------------
---------------------------|-----------------------------
--h------------------------|-5/7-7-7-7-------------------
-5^7---7---9^-^9-7-9^-^9-7-|-3/5-5-5-5---7^-^7-5-7^-^7-5-
-----0---------------------|-----------------------------


chorus riff (strum chords to rhythm)
---------------------------------------------------------
---------------------------------------------------------
---------------------------------------------------------
-10-----------8-----------5----------8-8-5-----------8-8-
-10-----------8-----------5----------8-8-5-----------8-8-
--8-----------6-----------3----------6-6-3-----------6-6-


post-chorus riff (strum) x2
-----------------------------------|------------------------------------------
-----------------------------------|------------------------------------------
-----------------------------------|------------------------------------------
-/5-----------8-8-/5-----------8-8-|-5-8-10-----------8----------(5)----------
-/5-----------8-8-/5-----------8-8-|-5-8-10-----------8----------(5)----------
-/3-----------6-6-/3-----------6-6-|-3-6--8-----------6----------(3)----------
(bass plays this after second chorus)

transition riff x3
---------------------------------------------|--------------------------------
---------------------------------------------|--------------------------------
---------------------------------------------|--------------------------------
-7/9-9-9-9/12-12-12-12/14-14-14-14^-^14-14---|-7/9-9-9-9-12-9-7/9-9-9-9-9-9-9-
-5/7-7-7-7/10-10-10-10/12-12-12-12^-^12-12---|-5/7-7-7-7-10-7-5/7-7-7-7-7-7-7-
---------------------------------------------|--------------------------------

powered by lycos
SEARCH: Tripod The Web