WET PUSSYCAT
Make your own free website on Tripod.com
"Wet Pussycat" by Unida, from the Unida/Dozer Split EP.


transcribed by ded bob

tuning: D


main/verse riff
----------------------------------
----------------------------------
--------------------------h-------
-----5---5-----5---5-----5^7-7~---
-0-0---0---0-0---0---0-0----------
----------------------------------
x x x x x x x x (light palm mute)

chorus riff
----------------------------------
----------------------------------
--h--5---5----h--5---5----h--5~---
-5^7---7---7-5^7---7---7-5^7------
----------------------------------
----------------------------------

alternate chorus riff
----------------------------------
--------------------------h-------
--h--5---5----h--5---5---5^7-7~---
-5^7---7---7-5^7---7---7----------
----------------------------------
----------------------------------


outro riff (strum repeatedly)
----------------------------------|----------------------------------
----------------------------------|----------------------------------
-2--------------------------------|-9--------------------------------
-2--------------------------------|-7--------------------------------
-0--------------------------------|-0--------------------------------
----------------------------------|----------------------------------

powered by lycos
SEARCH: Tripod The Web