PRIZE FIGHTER
Make your own free website on Tripod.com
"Prize Fighter" by Slo Burn, from the "Amusing the Amazing" EP.


transcribed by ded bob


main riff
-----------------
-----------------
-----------------
----------p---p--
-4---4---4^2-4^2-
-2---2---2---2---


chorus riff
--------------------------------------------------
--------------------------------------------------
--------------------------------------------------
-9-9-9-9-9--------------------------h--5----7-7/9-
-7-7-7-7-7--7-7-7-7-7/8-8-8-8-8-8--5^7---7--5-5/7-
------------5-5-5-5-5/6-6-6-6-6-6-----------------


outro
-------------------------------------------------
-------------------------------------------------
-------------------------------------------------
-7/9-9-9-9-9-9-9-9---------------------------9-9-
-5/7-7-7-7-7-7-7-7--7-7-7-7-7-8-8-8-8-8-8-8--7-7-
--------------------5-5-5-5-5-6-6-6-6-6-6-6--0-0-

powered by lycos
SEARCH: Tripod The Web