MUEZLI
Make your own free website on Tripod.com
"Muezli" by Slo Burn, from the "Amusing the Amazing" EP.


transcribed by ded bob


intro riff
-------------------------------------------
-------------------------------------------
-------------------------------------------
-------------------------------------------
---------------12-12----12---12---14-14-14-
-0--0--0-0-0-0-10-10----10---10---12-12-12-

--------------------------------------
------h-----h-------------------------
-16-14^16-14^16-16^--^16--14-16-14~~~-
--------------------------------------
--------------------------------------
--------------------------------------

(repeat first part of intro riff again)


main riff
----------------------------------------------------
----------------------------------------------------
--h--9-9--h--9--9-9-9--9-9--------------------------
-7^9-9-9-7^9-9--9-9-9--9-9--5-5-5-5-5-5-7-7-7-7-7-7-
-7---7-7-7---7--7-7-7--7-7--5-5-5-5-5-5-7-7-7-7-7-7-
-------------0--0-0-0--0-0--3-3-3-3-3-3-5-5-5-5-5-5-


transition/chorus riff
---------------------------------------------------------------
---------------------------------------------------------------
-12--12-12--14---14--14--14-14-9-9-9-9-9-9-9-9-9-9-9-9-9-9-9-9-
-12--12-12--14---14--14--14-14-9-9-9-9-9-9-9-9-9-9-9-9-9-9-9-9-
-10--10-10--12---12--12--12-12-7-7-7-7-7-7-7-7-7-7-7-7-7-7-7-7-
-------------------------------0-0-0-0-0-0-0-0-0-0-0-0-0-0-0-0-


(play chorus riff chords without distortion here)


pre-solo bridge (with wah)
-----------------------------------------------------------------------------
-------------------------h---8--10^----10^ ^10--8------8------------------h--
--h---------h---7--9----7^9------------------------9------9-----------h--7^9-
-7^9--9----7^9-----------------------------------------------9-9-----7^9-----
-----------------------------------------------------------------------------
-----------------------------------------------------------------------------


solo (with main riff)
------------------------------------------------------------------------------
------------------------------------------------------------------------------
------------------------------------------------------------------------------
---h-----------h-------------------------h-----------h------------------------
-12^14-14-14-12^14-14~~----------------12^14-14-14-12^14-12~~-----------------
------------------------------------------------------------------------------

------------------------------------------------------------------------------------------------------
-------------------------------------------h-------------------tr---------------------h---------------
---------------h---------------------h---12^14-14^-^14--14--12(14)-14^-12-------h---12^14-14^-12-14~~-
---h---------12^14-14~~--14-14-14--12^14----------------------------------14--12^14-------------------
-12^14-14-14------------------------------------------------------------------------------------------
------------------------------------------------------------------------------------------------------

----------------------------------------------------------------------------------------
-15^-^15-12--------15^-^15-12---------------tr----------------------h-------------------
------------14~~--------------14~~-12-14-12(14)-14^-12--------h---12^14-14^-^14-12-14~~-
-------------------------------------------------------14---12^14-----------------------
----------------------------------------------------------------------------------------
----------------------------------------------------------------------------------------

(clean main riff)


chorus riff


outro riff
---------------------------------------------------------
---------------------------------------------------------
-------------------------------------5--5----------------
-2-2--2--5--5--2-2--2--6--6--2-2--2--5--5--5/7-7-7-5/7\5-
-2-2--2--5--5--2-2--2--6--6--2-2--2--3--3--5/7-7-7-5/7\5-
-0-0--0--3--3--0-0--0--4--4--0-0--0--------3/5-5-5-3/5\3-


outro "solo"
---------------------------------------------------------------
-------------------------------------------------------h-------
----tr------------tr------------tr-----------h-------12^14-14^-
-12(14)-14-14--12(14)-14-14--12(14)-14-14--12^14-14------------
---------------------------------------------------------------
---------------------------------------------------------------

(repeat outro riff many times - increasing speed)


ending
----------
----------
-----9--9-
-2---9--9-
-2---7--7-
-0---0--0-

powered by lycos
SEARCH: Tripod The Web