ROLLIN' MY WAY TO FREEDOM
Make your own free website on Tripod.com
Nebula-Rolling My Way To FreedomSun Creature EP (Man's Ruin)

Transcribed by:
Marty Schulte (martyschulte@hotmail.com)Tunning: Dropped DNotes:
-Rhythm (especially during the chorus) may not be exact.
-Intro and outro not included (feel free to add it).
-Comments & criticism appreciated.Verse:Repeat A Couple of Times
------------------------------------------------------------------------
------------------------------------------------------------------------
------------7~---------7---5~-------------------------------------------
------------7~---------7---5~-------------------------------------------
------------5~---------5---3~-----0-3-0---------------------------------
------------------------------------------3-0---------------------------
Bridge 1:Starts with "You can't stop me it keeps moving..."
------------------------------------------------------------------------------------ Repeat
------------------------------------------------------------------------------------ 1 More
-------------7---------------7----------------7---------------7---------------7----- Time
-------------7---------------7----------------7---------------7-------0-3-0---7-----
-0-3-0-------5---0-3-0-------5---0-3-0--------5---0-3-0-------5---0-3---------5-----
-------3-0-------------3-0--------------3-0-------------3-0-------------------------
Bridge 2:"It keeps running through my veins...."
------------------------------------------------------------------------
------------------------------------------------------------------------
-------------------------------------------------7----------------------
-3-3-3-3-3-3-3-3-3--5-5-5-5-5-5--6-6-6-6-5-3-0---7----------------------
-3-3-3-3-3-3-3-3-3--5-5-5-5-5-5--6-6-6-6-5-3-0---5---0-3-0--------------
-3-3-3-3-3-3-3-3-3--5-5-5-5-5-5--6-6-6-6-5-3-0-------------3-0----------
Repeat then Back to VerseChorus:
------------------------------------------------------------------------
------------------------------------------------------------------------
-7-5-7\10--------------7-5-7\10-----------------------------------------
-7-5-7\10---5-3-5-5-3--7-5-7\10---5-3-5-5-3-----------------------------
-5-3-5\8----5-3-5-5-3--5-3-5\8----5-3-5-5-3-----------------------------
------------5-3-5-5-3-------------5-3-5-5-3-----------------------------
Repeat a Couple of TimesSolo During Chorus:
------------------------------------------------------------------------------------------
------------------------------------------------------------------------------------------
---------------10-12^-10-----10----10-12^-10----10----------------------------------------
--------10-12-------------12----12-----------12----12-10-12-10----------10-12-------------
-10-12---------------------------------------------------------12-10-12-------------------
------------------------------------------------------------------------------------------
Play 2 Times

GO TO......
TAB HOME
HOME
powered by lycos
SEARCH: Tripod The Web